999
*************** DEBUT_HEADER		
  0
SECTION
  2
HEADER
  9
$ANGBASE
 50
0.0
  9
$ANGDIR
 70
0
  9
$AUNITS
 70
0
  9
$AUPREC
 70
0
  9
$SPLFRAME
 70
0
  9
$SPLINETYPE
 70
6
  9
$SPLINESEGS
 70
8
  0
ENDSEC
999
*************** FIN_HEADER		
999
*************** DEBUT_TABLES		
  0
SECTION
  2
TABLES
  0
TABLE
  2
LTYPE
 70
 1
  0
LTYPE
  2
1
 70
64
  3
Solid Line
 72
65
 73
0
 40
0.0
  0
ENDTAB
  0
TABLE
  2
LAYER
 70
9
  0
LAYER
  2
MAcontour
 70
0
 62
1
  6
1
  0
LAYER
  2
MAsnezmarche
 70
0
 62
2
  6
1
  0
LAYER
  2
MAcmHaut
 70
0
 62
3
  6
1
  0
LAYER
  2
MAencombrement
 70
0
 62
4
  6
1
  0
LAYER
  2
MAcmbasse
 70
0
 62
5
  6
1
  0
LAYER
  2
MAsnezmarche
 70
0
 62
6
  6
1
  0
LAYER
  2
x
 70
0
 62
7
  6
1
  0
LAYER
  2
LMcontour
 70
0
 62
8
  6
1
  0
LAYER
  2
CMcontour
 70
0
 62
9
  6
1
  0
ENDTAB
  0
ENDSEC
999
*************** FIN_TABLES		
999
*************** DEBUT_BLOCKS		
  0
SECTION
  2
BLOCKS
  0
ENDSEC
999
*************** FIN_BLOCKS		
999
*************** DEBUT_ENTITIES	
  0
SECTION
  2
ENTITIES
999
*************** ***** CMS INFORMATIQUE SA  *****
999
*************** *** EXPERT MANAGER ESCALIERS ***
999
*************** **** MARCHE 00 ****
999
*************** Corps de la marche
  0
POLYLINE
  8
MAcontour
 66
1
 10
0.0
 20
0.0
 30
0.000000
 39
0.000000
 70
1
  0
VERTEX
  8
MAcontour
 10
-446.0
 20
275.3
 30
0.000000
  0
VERTEX
  8
MAcontour
 10
-44.0
 20
275.3
 30
0.000000
  0
VERTEX
  8
MAcontour
 10
-44.0
 20
0.0
 30
0.000000
  0
VERTEX
  8
MAcontour
 10
-836.5
 20
0.0
 30
0.000000
  0
VERTEX
  8
MAcontour
 10
-836.5
 20
45.0
 30
0.000000
  0
VERTEX
  8
MAcontour
 10
-848.0
 20
45.0
 30
0.000000
  0
VERTEX
  8
MAcontour
 10
-848.0
 20
275.3
 30
0.000000
  0
VERTEX
  8
MAcontour
 10
-446.0
 20
275.3
 30
0.000000
  0
SEQEND
  8
MAcontour
999
*************** ***** CMS INFORMATIQUE SA  *****
999
*************** *** EXPERT MANAGER ESCALIERS ***
999
*************** **** MARCHE 01 ****
999
*************** Corps de la marche
  0
POLYLINE
  8
MAcontour
 66
1
 10
0.0
 20
0.0
 30
0.000000
 39
0.000000
 70
1
  0
VERTEX
  8
MAcontour
 10
-446.0
 20
511.7
 30
0.000000
  0
VERTEX
  8
MAcontour
 10
-44.0
 20
511.7
 30
0.000000
  0
VERTEX
  8
MAcontour
 10
-44.0
 20
236.3
 30
0.000000
  0
VERTEX
  8
MAcontour
 10
-848.0
 20
236.3
 30
0.000000
  0
VERTEX
  8
MAcontour
 10
-848.0
 20
511.7
 30
0.000000
  0
VERTEX
  8
MAcontour
 10
-446.0
 20
511.7
 30
0.000000
  0
SEQEND
  8
MAcontour
999
*************** ***** CMS INFORMATIQUE SA  *****
999
*************** *** EXPERT MANAGER ESCALIERS ***
999
*************** **** MARCHE 02 ****
999
*************** Corps de la marche
  0
POLYLINE
  8
MAcontour
 66
1
 10
0.0
 20
0.0
 30
0.000000
 39
0.000000
 70
1
  0
VERTEX
  8
MAcontour
 10
-446.0
 20
746.6
 30
0.000000
  0
VERTEX
  8
MAcontour
 10
-44.0
 20
752.3
 30
0.000000
  0
VERTEX
  8
MAcontour
 10
-44.0
 20
472.7
 30
0.000000
  0
VERTEX
  8
MAcontour
 10
-848.0
 20
472.7
 30
0.000000
  0
VERTEX
  8
MAcontour
 10
-848.0
 20
740.9
 30
0.000000
  0
VERTEX
  8
MAcontour
 10
-446.0
 20
746.6
 30
0.000000
  0
SEQEND
  8
MAcontour
999
*************** ***** CMS INFORMATIQUE SA  *****
999
*************** *** EXPERT MANAGER ESCALIERS ***
999
*************** **** MARCHE 03 ****
999
*************** Corps de la marche
  0
POLYLINE
  8
MAcontour
 66
1
 10
0.0
 20
0.0
 30
0.000000
 39
0.000000
 70
1
  0
VERTEX
  8
MAcontour
 10
-446.0
 20
974.4
 30
0.000000
  0
VERTEX
  8
MAcontour
 10
-44.0
 20
1017.0
 30
0.000000
  0
VERTEX
  8
MAcontour
 10
-44.0
 20
713.4
 30
0.000000
  0
VERTEX
  8
MAcontour
 10
-848.0
 20
702.0
 30
0.000000
  0
VERTEX
  8
MAcontour
 10
-848.0
 20
931.8
 30
0.000000
  0
VERTEX
  8
MAcontour
 10
-446.0
 20
974.4
 30
0.000000
  0
SEQEND
  8
MAcontour
999
*************** ***** CMS INFORMATIQUE SA  *****
999
*************** *** EXPERT MANAGER ESCALIERS ***
999
*************** **** MARCHE 04 ****
999
*************** Corps de la marche
  0
POLYLINE
  8
MAcontour
 66
1
 10
0.0
 20
0.0
 30
0.000000
 39
0.000000
 70
1
  0
VERTEX
  8
MAcontour
 10
-446.0
 20
1197.3
 30
0.000000
  0
VERTEX
  8
MAcontour
 10
-44.0
 20
1300.7
 30
0.000000
  0
VERTEX
  8
MAcontour
 10
-44.0
 20
977.9
 30
0.000000
  0
VERTEX
  8
MAcontour
 10
-848.0
 20
892.7
 30
0.000000
  0
VERTEX
  8
MAcontour
 10
-848.0
 20
1093.9
 30
0.000000
  0
VERTEX
  8
MAcontour
 10
-446.0
 20
1197.3
 30
0.000000
  0
SEQEND
  8
MAcontour
999
*************** ***** CMS INFORMATIQUE SA  *****
999
*************** *** EXPERT MANAGER ESCALIERS ***
999
*************** **** MARCHE 05 ****
999
*************** Corps de la marche
  0
POLYLINE
  8
MAcontour
 66
1
 10
0.0
 20
0.0
 30
0.000000
 39
0.000000
 70
1
  0
VERTEX
  8
MAcontour
 10
-446.0
 20
1421.4
 30
0.000000
  0
VERTEX
  8
MAcontour
 10
-44.0
 20
1608.3
 30
0.000000
  0
VERTEX
  8
MAcontour
 10
-44.0
 20
1260.6
 30
0.000000
  0
VERTEX
  8
MAcontour
 10
-848.0
 20
1053.8
 30
0.000000
  0
VERTEX
  8
MAcontour
 10
-848.0
 20
1234.6
 30
0.000000
  0
VERTEX
  8
MAcontour
 10
-446.0
 20
1421.4
 30
0.000000
  0
SEQEND
  8
MAcontour
999
*************** ***** CMS INFORMATIQUE SA  *****
999
*************** *** EXPERT MANAGER ESCALIERS ***
999
*************** **** MARCHE 06 ****
999
*************** Corps de la marche
  0
POLYLINE
  8
MAcontour
 66
1
 10
0.0
 20
0.0
 30
0.000000
 39
0.000000
 70
1
  0
VERTEX
  8
MAcontour
 10
-444.7
 20
1694.0
 30
0.000000
  0
VERTEX
  8
MAcontour
 10
-44.0
 20
2024.5
 30
0.000000
  0
VERTEX
  8
MAcontour
 10
-44.0
 20
1565.4
 30
0.000000
  0
VERTEX
  8
MAcontour
 10
-848.0
 20
1191.7
 30
0.000000
  0
VERTEX
  8
MAcontour
 10
-848.0
 20
1288.5
 30
0.000000
  0
VERTEX
  8
MAcontour
 10
-836.5
 20
1288.5
 30
0.000000
  0
VERTEX
  8
MAcontour
 10
-836.5
 20
1363.5
 30
0.000000
  0
VERTEX
  8
MAcontour
 10
-845.4
 20
1363.5
 30
0.000000
  0
VERTEX
  8
MAcontour
 10
-444.7
 20
1694.0
 30
0.000000
  0
SEQEND
  8
MAcontour
999
*************** ***** CMS INFORMATIQUE SA  *****
999
*************** *** EXPERT MANAGER ESCALIERS ***
999
*************** **** MARCHE 07 ****
999
*************** Corps de la marche
  0
POLYLINE
  8
MAcontour
 66
1
 10
0.0
 20
0.0
 30
0.000000
 39
0.000000
 70
1
  0
VERTEX
  8
MAcontour
 10
-704.5
 20
1754.0
 30
0.000000
  0
VERTEX
  8
MAcontour
 10
-438.6
 20
2156.0
 30
0.000000
  0
VERTEX
  8
MAcontour
 10
-44.0
 20
2156.0
 30
0.000000
  0
VERTEX
  8
MAcontour
 10
-44.0
 20
1974.1
 30
0.000000
  0
VERTEX
  8
MAcontour
 10
-836.5
 20
1320.4
 30
0.000000
  0
VERTEX
  8
MAcontour
 10
-836.5
 20
1363.5
 30
0.000000
  0
VERTEX
  8
MAcontour
 10
-911.5
 20
1363.5
 30
0.000000
  0
VERTEX
  8
MAcontour
 10
-911.5
 20
1352.0
 30
0.000000
  0
VERTEX
  8
MAcontour
 10
-970.4
 20
1352.0
 30
0.000000
  0
VERTEX
  8
MAcontour
 10
-704.5
 20
1754.0
 30
0.000000
  0
SEQEND
  8
MAcontour
999
*************** ***** CMS INFORMATIQUE SA  *****
999
*************** *** EXPERT MANAGER ESCALIERS ***
999
*************** **** MARCHE 08 ****
999
*************** Corps de la marche
  0
POLYLINE
  8
MAcontour
 66
1
 10
0.0
 20
0.0
 30
0.000000
 39
0.000000
 70
1
  0
VERTEX
  8
MAcontour
 10
-942.1
 20
1754.0
 30
0.000000
  0
VERTEX
  8
MAcontour
 10
-785.2
 20
2156.0
 30
0.000000
  0
VERTEX
  8
MAcontour
 10
-391.9
 20
2156.0
 30
0.000000
  0
VERTEX
  8
MAcontour
 10
-923.7
 20
1352.0
 30
0.000000
  0
VERTEX
  8
MAcontour
 10
-1099.1
 20
1352.0
 30
0.000000
  0
VERTEX
  8
MAcontour
 10
-942.1
 20
1754.0
 30
0.000000
  0
SEQEND
  8
MAcontour
999
*************** ***** CMS INFORMATIQUE SA  *****
999
*************** *** EXPERT MANAGER ESCALIERS ***
999
*************** **** MARCHE 09 ****
999
*************** Corps de la marche
  0
POLYLINE
  8
MAcontour
 66
1
 10
0.0
 20
0.0
 30
0.000000
 39
0.000000
 70
1
  0
VERTEX
  8
MAcontour
 10
-1160.6
 20
1754.0
 30
0.000000
  0
VERTEX
  8
MAcontour
 10
-1072.9
 20
2156.0
 30
0.000000
  0
VERTEX
  8
MAcontour
 10
-743.4
 20
2156.0
 30
0.000000
  0
VERTEX
  8
MAcontour
 10
-1057.3
 20
1352.0
 30
0.000000
  0
VERTEX
  8
MAcontour
 10
-1248.4
 20
1352.0
 30
0.000000
  0
VERTEX
  8
MAcontour
 10
-1160.6
 20
1754.0
 30
0.000000
  0
SEQEND
  8
MAcontour
999
*************** ***** CMS INFORMATIQUE SA  *****
999
*************** *** EXPERT MANAGER ESCALIERS ***
999
*************** **** MARCHE 10 ****
999
*************** Corps de la marche
  0
POLYLINE
  8
MAcontour
 66
1
 10
0.0
 20
0.0
 30
0.000000
 39
0.000000
 70
1
  0
VERTEX
  8
MAcontour
 10
-1383.7
 20
1754.0
 30
0.000000
  0
VERTEX
  8
MAcontour
 10
-1347.8
 20
2156.0
 30
0.000000
  0
VERTEX
  8
MAcontour
 10
-1033.0
 20
2156.0
 30
0.000000
  0
VERTEX
  8
MAcontour
 10
-1208.5
 20
1352.0
 30
0.000000
  0
VERTEX
  8
MAcontour
 10
-1419.7
 20
1352.0
 30
0.000000
  0
VERTEX
  8
MAcontour
 10
-1383.7
 20
1754.0
 30
0.000000
  0
SEQEND
  8
MAcontour
999
*************** ***** CMS INFORMATIQUE SA  *****
999
*************** *** EXPERT MANAGER ESCALIERS ***
999
*************** **** MARCHE 11 ****
999
*************** Corps de la marche
  0
POLYLINE
  8
MAcontour
 66
1
 10
0.0
 20
0.0
 30
0.000000
 39
0.000000
 70
1
  0
VERTEX
  8
MAcontour
 10
-1612.4
 20
1754.0
 30
0.000000
  0
VERTEX
  8
MAcontour
 10
-1607.4
 20
2156.0
 30
0.000000
  0
VERTEX
  8
MAcontour
 10
-1308.7
 20
2156.0
 30
0.000000
  0
VERTEX
  8
MAcontour
 10
-1380.6
 20
1352.0
 30
0.000000
  0
VERTEX
  8
MAcontour
 10
-1617.5
 20
1352.0
 30
0.000000
  0
VERTEX
  8
MAcontour
 10
-1612.4
 20
1754.0
 30
0.000000
  0
SEQEND
  8
MAcontour
999
*************** ***** CMS INFORMATIQUE SA  *****
999
*************** *** EXPERT MANAGER ESCALIERS ***
999
*************** **** MARCHE 12 ****
999
*************** Corps de la marche
  0
POLYLINE
  8
MAcontour
 66
1
 10
0.0
 20
0.0
 30
0.000000
 39
0.000000
 70
1
  0
VERTEX
  8
MAcontour
 10
-1847.7
 20
1754.0
 30
0.000000
  0
VERTEX
  8
MAcontour
 10
-1847.7
 20
2156.0
 30
0.000000
  0
VERTEX
  8
MAcontour
 10
-1568.5
 20
2156.0
 30
0.000000
  0
VERTEX
  8
MAcontour
 10
-1578.6
 20
1352.0
 30
0.000000
  0
VERTEX
  8
MAcontour
 10
-1847.7
 20
1352.0
 30
0.000000
  0
VERTEX
  8
MAcontour
 10
-1847.7
 20
1754.0
 30
0.000000
  0
SEQEND
  8
MAcontour
999
*************** ***** CMS INFORMATIQUE SA  *****
999
*************** *** EXPERT MANAGER ESCALIERS ***
999
*************** **** MARCHE 13 ****
999
*************** Corps de la marche
  0
POLYLINE
  8
MAcontour
 66
1
 10
0.0
 20
0.0
 30
0.000000
 39
0.000000
 70
1
  0
VERTEX
  8
MAcontour
 10
-2084.0
 20
1759.7
 30
0.000000
  0
VERTEX
  8
MAcontour
 10
-2084.0
 20
2156.0
 30
0.000000
  0
VERTEX
  8
MAcontour
 10
-1808.7
 20
2156.0
 30
0.000000
  0
VERTEX
  8
MAcontour
 10
-1808.7
 20
1352.0
 30
0.000000
  0
VERTEX
  8
MAcontour
 10
-2055.0
 20
1352.0
 30
0.000000
  0
VERTEX
  8
MAcontour
 10
-2055.0
 20
1363.5
 30
0.000000
  0
VERTEX
  8
MAcontour
 10
-2084.0
 20
1363.5
 30
0.000000
  0
VERTEX
  8
MAcontour
 10
-2084.0
 20
1759.7
 30
0.000000
  0
SEQEND
  8
MAcontour
999
*************** ***** CMS INFORMATIQUE SA  *****
999
*************** *** EXPERT MANAGER ESCALIERS ***
999
*************** **** MARCHE 14 ****
999
*************** Corps de la marche
  0
POLYLINE
  8
MAcontour
 66
1
 10
0.0
 20
0.0
 30
0.000000
 39
0.000000
 70
1
  0
VERTEX
  8
MAcontour
 10
-2130.0
 20
1759.7
 30
0.000000
  0
VERTEX
  8
MAcontour
 10
-2130.0
 20
2156.0
 30
0.000000
  0
VERTEX
  8
MAcontour
 10
-2045.0
 20
2156.0
 30
0.000000
  0
VERTEX
  8
MAcontour
 10
-2045.0
 20
1352.0
 30
0.000000
  0
VERTEX
  8
MAcontour
 10
-2055.0
 20
1352.0
 30
0.000000
  0
VERTEX
  8
MAcontour
 10
-2055.0
 20
1363.5
 30
0.000000
  0
VERTEX
  8
MAcontour
 10
-2130.0
 20
1363.5
 30
0.000000
  0
VERTEX
  8
MAcontour
 10
-2130.0
 20
1759.7
 30
0.000000
  0
SEQEND
  8
MAcontour
  0
POLYLINE
  8
CMcontour
 66
1
 10
0.0
 20
0.0
 30
0.000000
 39
0.000000
 70
1
  0
VERTEX
  8
CMcontour
 10
-44.0
 20
35.0
 30
0.000000
  0
VERTEX
  8
CMcontour
 10
-44.0
 20
55.0
 30
0.000000
  0
VERTEX
  8
CMcontour
 10
-848.0
 20
55.0
 30
0.000000
  0
VERTEX
  8
CMcontour
 10
-836.5
 20
35.0
 30
0.000000
  0
VERTEX
  8
CMcontour
 10
-44.0
 20
35.0
 30
0.000000
  0
SEQEND
  8
CMcontour
  0
POLYLINE
  8
CMcontour
 66
1
 10
0.0
 20
0.0
 30
0.000000
 39
0.000000
 70
1
  0
VERTEX
  8
CMcontour
 10
-44.0
 20
271.3
 30
0.000000
  0
VERTEX
  8
CMcontour
 10
-44.0
 20
291.3
 30
0.000000
  0
VERTEX
  8
CMcontour
 10
-848.0
 20
291.3
 30
0.000000
  0
VERTEX
  8
CMcontour
 10
-848.0
 20
271.3
 30
0.000000
  0
VERTEX
  8
CMcontour
 10
-44.0
 20
271.3
 30
0.000000
  0
SEQEND
  8
CMcontour
  0
POLYLINE
  8
CMcontour
 66
1
 10
0.0
 20
0.0
 30
0.000000
 39
0.000000
 70
1
  0
VERTEX
  8
CMcontour
 10
-44.0
 20
507.7
 30
0.000000
  0
VERTEX
  8
CMcontour
 10
-44.0
 20
527.7
 30
0.000000
  0
VERTEX
  8
CMcontour
 10
-848.0
 20
527.7
 30
0.000000
  0
VERTEX
  8
CMcontour
 10
-848.0
 20
507.7
 30
0.000000
  0
VERTEX
  8
CMcontour
 10
-44.0
 20
507.7
 30
0.000000
  0
SEQEND
  8
CMcontour
  0
POLYLINE
  8
CMcontour
 66
1
 10
0.0
 20
0.0
 30
0.000000
 39
0.000000
 70
1
  0
VERTEX
  8
CMcontour
 10
-44.0
 20
748.3
 30
0.000000
  0
VERTEX
  8
CMcontour
 10
-44.0
 20
768.2
 30
0.000000
  0
VERTEX
  8
CMcontour
 10
-848.0
 20
756.8
 30
0.000000
  0
VERTEX
  8
CMcontour
 10
-848.0
 20
736.9
 30
0.000000
  0
VERTEX
  8
CMcontour
 10
-44.0
 20
748.3
 30
0.000000
  0
SEQEND
  8
CMcontour
  0
POLYLINE
  8
CMcontour
 66
1
 10
0.0
 20
0.0
 30
0.000000
 39
0.000000
 70
1
  0
VERTEX
  8
CMcontour
 10
-44.0
 20
1013.0
 30
0.000000
  0
VERTEX
  8
CMcontour
 10
-44.0
 20
1033.0
 30
0.000000
  0
VERTEX
  8
CMcontour
 10
-848.0
 20
947.8
 30
0.000000
  0
VERTEX
  8
CMcontour
 10
-848.0
 20
927.8
 30
0.000000
  0
VERTEX
  8
CMcontour
 10
-44.0
 20
1013.0
 30
0.000000
  0
SEQEND
  8
CMcontour
  0
POLYLINE
  8
CMcontour
 66
1
 10
0.0
 20
0.0
 30
0.000000
 39
0.000000
 70
1
  0
VERTEX
  8
CMcontour
 10
-44.0
 20
1296.6
 30
0.000000
  0
VERTEX
  8
CMcontour
 10
-44.0
 20
1317.1
 30
0.000000
  0
VERTEX
  8
CMcontour
 10
-848.0
 20
1110.3
 30
0.000000
  0
VERTEX
  8
CMcontour
 10
-848.0
 20
1089.8
 30
0.000000
  0
VERTEX
  8
CMcontour
 10
-44.0
 20
1296.6
 30
0.000000
  0
SEQEND
  8
CMcontour
  0
POLYLINE
  8
CMcontour
 66
1
 10
0.0
 20
0.0
 30
0.000000
 39
0.000000
 70
1
  0
VERTEX
  8
CMcontour
 10
-44.0
 20
1603.9
 30
0.000000
  0
VERTEX
  8
CMcontour
 10
-44.0
 20
1625.9
 30
0.000000
  0
VERTEX
  8
CMcontour
 10
-848.0
 20
1252.2
 30
0.000000
  0
VERTEX
  8
CMcontour
 10
-848.0
 20
1230.2
 30
0.000000
  0
VERTEX
  8
CMcontour
 10
-44.0
 20
1603.9
 30
0.000000
  0
SEQEND
  8
CMcontour
  0
POLYLINE
  8
CMcontour
 66
1
 10
0.0
 20
0.0
 30
0.000000
 39
0.000000
 70
1
  0
VERTEX
  8
CMcontour
 10
-44.0
 20
2019.3
 30
0.000000
  0
VERTEX
  8
CMcontour
 10
-44.0
 20
2045.1
 30
0.000000
  0
VERTEX
  8
CMcontour
 10
-870.3
 20
1363.5
 30
0.000000
  0
VERTEX
  8
CMcontour
 10
-839.0
 20
1363.5
 30
0.000000
  0
VERTEX
  8
CMcontour
 10
-44.0
 20
2019.3
 30
0.000000
  0
SEQEND
  8
CMcontour
  0
POLYLINE
  8
CMcontour
 66
1
 10
0.0
 20
0.0
 30
0.000000
 39
0.000000
 70
1
  0
VERTEX
  8
CMcontour
 10
-433.7
 20
2156.0
 30
0.000000
  0
VERTEX
  8
CMcontour
 10
-457.5
 20
2156.0
 30
0.000000
  0
VERTEX
  8
CMcontour
 10
-989.3
 20
1352.0
 30
0.000000
  0
VERTEX
  8
CMcontour
 10
-965.5
 20
1352.0
 30
0.000000
  0
VERTEX
  8
CMcontour
 10
-433.7
 20
2156.0
 30
0.000000
  0
SEQEND
  8
CMcontour
  0
POLYLINE
  8
CMcontour
 66
1
 10
0.0
 20
0.0
 30
0.000000
 39
0.000000
 70
1
  0
VERTEX
  8
CMcontour
 10
-780.9
 20
2156.0
 30
0.000000
  0
VERTEX
  8
CMcontour
 10
-802.3
 20
2156.0
 30
0.000000
  0
VERTEX
  8
CMcontour
 10
-1116.2
 20
1352.0
 30
0.000000
  0
VERTEX
  8
CMcontour
 10
-1094.8
 20
1352.0
 30
0.000000
  0
VERTEX
  8
CMcontour
 10
-780.9
 20
2156.0
 30
0.000000
  0
SEQEND
  8
CMcontour
  0
POLYLINE
  8
CMcontour
 66
1
 10
0.0
 20
0.0
 30
0.000000
 39
0.000000
 70
1
  0
VERTEX
  8
CMcontour
 10
-1068.7
 20
2156.0
 30
0.000000
  0
VERTEX
  8
CMcontour
 10
-1089.1
 20
2156.0
 30
0.000000
  0
VERTEX
  8
CMcontour
 10
-1264.6
 20
1352.0
 30
0.000000
  0
VERTEX
  8
CMcontour
 10
-1244.2
 20
1352.0
 30
0.000000
  0
VERTEX
  8
CMcontour
 10
-1068.7
 20
2156.0
 30
0.000000
  0
SEQEND
  8
CMcontour
  0
POLYLINE
  8
CMcontour
 66
1
 10
0.0
 20
0.0
 30
0.000000
 39
0.000000
 70
1
  0
VERTEX
  8
CMcontour
 10
-1343.7
 20
2156.0
 30
0.000000
  0
VERTEX
  8
CMcontour
 10
-1363.7
 20
2156.0
 30
0.000000
  0
VERTEX
  8
CMcontour
 10
-1435.6
 20
1352.0
 30
0.000000
  0
VERTEX
  8
CMcontour
 10
-1415.6
 20
1352.0
 30
0.000000
  0
VERTEX
  8
CMcontour
 10
-1343.7
 20
2156.0
 30
0.000000
  0
SEQEND
  8
CMcontour
  0
POLYLINE
  8
CMcontour
 66
1
 10
0.0
 20
0.0
 30
0.000000
 39
0.000000
 70
1
  0
VERTEX
  8
CMcontour
 10
-1603.4
 20
2156.0
 30
0.000000
  0
VERTEX
  8
CMcontour
 10
-1623.3
 20
2156.0
 30
0.000000
  0
VERTEX
  8
CMcontour
 10
-1633.4
 20
1352.0
 30
0.000000
  0
VERTEX
  8
CMcontour
 10
-1613.5
 20
1352.0
 30
0.000000
  0
VERTEX
  8
CMcontour
 10
-1603.4
 20
2156.0
 30
0.000000
  0
SEQEND
  8
CMcontour
  0
POLYLINE
  8
CMcontour
 66
1
 10
0.0
 20
0.0
 30
0.000000
 39
0.000000
 70
1
  0
VERTEX
  8
CMcontour
 10
-1843.7
 20
2156.0
 30
0.000000
  0
VERTEX
  8
CMcontour
 10
-1863.7
 20
2156.0
 30
0.000000
  0
VERTEX
  8
CMcontour
 10
-1863.7
 20
1352.0
 30
0.000000
  0
VERTEX
  8
CMcontour
 10
-1843.7
 20
1352.0
 30
0.000000
  0
VERTEX
  8
CMcontour
 10
-1843.7
 20
2156.0
 30
0.000000
  0
SEQEND
  8
CMcontour
  0
POLYLINE
  8
CMcontour
 66
1
 10
0.0
 20
0.0
 30
0.000000
 39
0.000000
 70
1
  0
VERTEX
  8
CMcontour
 10
-2080.0
 20
2156.0
 30
0.000000
  0
VERTEX
  8
CMcontour
 10
-2100.0
 20
2156.0
 30
0.000000
  0
VERTEX
  8
CMcontour
 10
-2100.0
 20
1363.5
 30
0.000000
  0
VERTEX
  8
CMcontour
 10
-2080.0
 20
1363.5
 30
0.000000
  0
VERTEX
  8
CMcontour
 10
-2080.0
 20
2156.0
 30
0.000000
  0
SEQEND
  8
CMcontour
  0
POLYLINE
  8
x
 66
1
 10
0.0
 20
0.0
 30
0.000000
 39
0.000000
 70
1
  0
VERTEX
  8
x
 10
-911.5
 20
-30.0
 30
0.000000
  0
VERTEX
  8
x
 10
-836.5
 20
-30.0
 30
0.000000
  0
VERTEX
  8
x
 10
-836.5
 20
45.0
 30
0.000000
  0
VERTEX
  8
x
 10
-911.5
 20
45.0
 30
0.000000
  0
VERTEX
  8
x
 10
-911.5
 20
-30.0
 30
0.000000
  0
SEQEND
  8
x
  0
POLYLINE
  8
LMcontour
 66
1
 10
0.0
 20
0.0
 30
0.000000
 39
0.000000
 70
1
  0
VERTEX
  8
LMcontour
 10
-900.0
 20
45.0
 30
0.000000
  0
VERTEX
  8
LMcontour
 10
-848.0
 20
45.0
 30
0.000000
  0
VERTEX
  8
LMcontour
 10
-848.0
 20
1288.5
 30
0.000000
  0
VERTEX
  8
LMcontour
 10
-900.0
 20
1288.5
 30
0.000000
  0
VERTEX
  8
LMcontour
 10
-900.0
 20
45.0
 30
0.000000
  0
SEQEND
  8
LMcontour
  0
POLYLINE
  8
x
 66
1
 10
0.0
 20
0.0
 30
0.000000
 39
0.000000
 70
1
  0
VERTEX
  8
x
 10
-911.5
 20
1288.5
 30
0.000000
  0
VERTEX
  8
x
 10
-836.5
 20
1288.5
 30
0.000000
  0
VERTEX
  8
x
 10
-836.5
 20
1363.5
 30
0.000000
  0
VERTEX
  8
x
 10
-911.5
 20
1363.5
 30
0.000000
  0
VERTEX
  8
x
 10
-911.5
 20
1288.5
 30
0.000000
  0
SEQEND
  8
x
  0
POLYLINE
  8
LMcontour
 66
1
 10
0.0
 20
0.0
 30
0.000000
 39
0.000000
 70
1
  0
VERTEX
  8
LMcontour
 10
-911.5
 20
1300.0
 30
0.000000
  0
VERTEX
  8
LMcontour
 10
-911.5
 20
1352.0
 30
0.000000
  0
VERTEX
  8
LMcontour
 10
-2055.0
 20
1352.0
 30
0.000000
  0
VERTEX
  8
LMcontour
 10
-2055.0
 20
1300.0
 30
0.000000
  0
VERTEX
  8
LMcontour
 10
-911.5
 20
1300.0
 30
0.000000
  0
SEQEND
  8
LMcontour
  0
POLYLINE
  8
x
 66
1
 10
0.0
 20
0.0
 30
0.000000
 39
0.000000
 70
1
  0
VERTEX
  8
x
 10
-2055.0
 20
1288.5
 30
0.000000
  0
VERTEX
  8
x
 10
-2055.0
 20
1363.5
 30
0.000000
  0
VERTEX
  8
x
 10
-2130.0
 20
1363.5
 30
0.000000
  0
VERTEX
  8
x
 10
-2130.0
 20
1288.5
 30
0.000000
  0
VERTEX
  8
x
 10
-2055.0
 20
1288.5
 30
0.000000
  0
SEQEND
  8
x
  0
POLYLINE
  8
LMcontour
 66
1
 10
0.0
 20
0.0
 30
0.000000
 39
0.000000
 70
1
  0
VERTEX
  8
LMcontour
 10
0.0
 20
-30.0
 30
0.000000
  0
VERTEX
  8
LMcontour
 10
-44.0
 20
-30.0
 30
0.000000
  0
VERTEX
  8
LMcontour
 10
-44.0
 20
2200.0
 30
0.000000
  0
VERTEX
  8
LMcontour
 10
0.0
 20
2200.0
 30
0.000000
  0
VERTEX
  8
LMcontour
 10
0.0
 20
-30.0
 30
0.000000
  0
SEQEND
  8
LMcontour
  0
POLYLINE
  8
LMcontour
 66
1
 10
0.0
 20
0.0
 30
0.000000
 39
0.000000
 70
1
  0
VERTEX
  8
LMcontour
 10
-44.0
 20
2200.0
 30
0.000000
  0
VERTEX
  8
LMcontour
 10
-44.0
 20
2156.0
 30
0.000000
  0
VERTEX
  8
LMcontour
 10
-2140.0
 20
2156.0
 30
0.000000
  0
VERTEX
  8
LMcontour
 10
-2140.0
 20
2200.0
 30
0.000000
  0
VERTEX
  8
LMcontour
 10
-44.0
 20
2200.0
 30
0.000000
  0
SEQEND
  8
LMcontour
  0
POLYLINE
  8
x
 66
1
 10
0.0
 20
0.0
 30
0.000000
 39
0.000000
 70
1
  0
VERTEX
  8
x
 10
-859.0
 20
147.9
 30
0.000000
  0
VERTEX
  8
x
 10
-859.0
 20
207.9
 30
0.000000
  0
VERTEX
  8
x
 10
-889.0
 20
207.9
 30
0.000000
  0
VERTEX
  8
x
 10
-889.0
 20
147.9
 30
0.000000
  0
VERTEX
  8
x
 10
-859.0
 20
147.9
 30
0.000000
  0
SEQEND
  8
x
  0
POLYLINE
  8
x
 66
1
 10
0.0
 20
0.0
 30
0.000000
 39
0.000000
 70
1
  0
VERTEX
  8
x
 10
-859.0
 20
310.9
 30
0.000000
  0
VERTEX
  8
x
 10
-859.0
 20
370.9
 30
0.000000
  0
VERTEX
  8
x
 10
-889.0
 20
370.9
 30
0.000000
  0
VERTEX
  8
x
 10
-889.0
 20
310.9
 30
0.000000
  0
VERTEX
  8
x
 10
-859.0
 20
310.9
 30
0.000000
  0
SEQEND
  8
x
  0
POLYLINE
  8
x
 66
1
 10
0.0
 20
0.0
 30
0.000000
 39
0.000000
 70
1
  0
VERTEX
  8
x
 10
-859.0
 20
473.8
 30
0.000000
  0
VERTEX
  8
x
 10
-859.0
 20
533.8
 30
0.000000
  0
VERTEX
  8
x
 10
-889.0
 20
533.8
 30
0.000000
  0
VERTEX
  8
x
 10
-889.0
 20
473.8
 30
0.000000
  0
VERTEX
  8
x
 10
-859.0
 20
473.8
 30
0.000000
  0
SEQEND
  8
x
  0
POLYLINE
  8
x
 66
1
 10
0.0
 20
0.0
 30
0.000000
 39
0.000000
 70
1
  0
VERTEX
  8
x
 10
-859.0
 20
636.7
 30
0.000000
  0
VERTEX
  8
x
 10
-859.0
 20
696.7
 30
0.000000
  0
VERTEX
  8
x
 10
-889.0
 20
696.7
 30
0.000000
  0
VERTEX
  8
x
 10
-889.0
 20
636.7
 30
0.000000
  0
VERTEX
  8
x
 10
-859.0
 20
636.7
 30
0.000000
  0
SEQEND
  8
x
  0
POLYLINE
  8
x
 66
1
 10
0.0
 20
0.0
 30
0.000000
 39
0.000000
 70
1
  0
VERTEX
  8
x
 10
-859.0
 20
799.7
 30
0.000000
  0
VERTEX
  8
x
 10
-859.0
 20
859.7
 30
0.000000
  0
VERTEX
  8
x
 10
-889.0
 20
859.7
 30
0.000000
  0
VERTEX
  8
x
 10
-889.0
 20
799.7
 30
0.000000
  0
VERTEX
  8
x
 10
-859.0
 20
799.7
 30
0.000000
  0
SEQEND
  8
x
  0
POLYLINE
  8
x
 66
1
 10
0.0
 20
0.0
 30
0.000000
 39
0.000000
 70
1
  0
VERTEX
  8
x
 10
-859.0
 20
962.6
 30
0.000000
  0
VERTEX
  8
x
 10
-859.0
 20
1022.6
 30
0.000000
  0
VERTEX
  8
x
 10
-889.0
 20
1022.6
 30
0.000000
  0
VERTEX
  8
x
 10
-889.0
 20
962.6
 30
0.000000
  0
VERTEX
  8
x
 10
-859.0
 20
962.6
 30
0.000000
  0
SEQEND
  8
x
  0
POLYLINE
  8
x
 66
1
 10
0.0
 20
0.0
 30
0.000000
 39
0.000000
 70
1
  0
VERTEX
  8
x
 10
-859.0
 20
1125.6
 30
0.000000
  0
VERTEX
  8
x
 10
-859.0
 20
1185.6
 30
0.000000
  0
VERTEX
  8
x
 10
-889.0
 20
1185.6
 30
0.000000
  0
VERTEX
  8
x
 10
-889.0
 20
1125.6
 30
0.000000
  0
VERTEX
  8
x
 10
-859.0
 20
1125.6
 30
0.000000
  0
SEQEND
  8
x
  0
POLYLINE
  8
x
 66
1
 10
0.0
 20
0.0
 30
0.000000
 39
0.000000
 70
1
  0
VERTEX
  8
x
 10
-1001.9
 20
1341.0
 30
0.000000
  0
VERTEX
  8
x
 10
-1061.9
 20
1341.0
 30
0.000000
  0
VERTEX
  8
x
 10
-1061.9
 20
1311.0
 30
0.000000
  0
VERTEX
  8
x
 10
-1001.9
 20
1311.0
 30
0.000000
  0
VERTEX
  8
x
 10
-1001.9
 20
1341.0
 30
0.000000
  0
SEQEND
  8
x
  0
POLYLINE
  8
x
 66
1
 10
0.0
 20
0.0
 30
0.000000
 39
0.000000
 70
1
  0
VERTEX
  8
x
 10
-1152.4
 20
1341.0
 30
0.000000
  0
VERTEX
  8
x
 10
-1212.4
 20
1341.0
 30
0.000000
  0
VERTEX
  8
x
 10
-1212.4
 20
1311.0
 30
0.000000
  0
VERTEX
  8
x
 10
-1152.4
 20
1311.0
 30
0.000000
  0
VERTEX
  8
x
 10
-1152.4
 20
1341.0
 30
0.000000
  0
SEQEND
  8
x
  0
POLYLINE
  8
x
 66
1
 10
0.0
 20
0.0
 30
0.000000
 39
0.000000
 70
1
  0
VERTEX
  8
x
 10
-1302.8
 20
1341.0
 30
0.000000
  0
VERTEX
  8
x
 10
-1362.8
 20
1341.0
 30
0.000000
  0
VERTEX
  8
x
 10
-1362.8
 20
1311.0
 30
0.000000
  0
VERTEX
  8
x
 10
-1302.8
 20
1311.0
 30
0.000000
  0
VERTEX
  8
x
 10
-1302.8
 20
1341.0
 30
0.000000
  0
SEQEND
  8
x
  0
POLYLINE
  8
x
 66
1
 10
0.0
 20
0.0
 30
0.000000
 39
0.000000
 70
1
  0
VERTEX
  8
x
 10
-1453.2
 20
1341.0
 30
0.000000
  0
VERTEX
  8
x
 10
-1513.2
 20
1341.0
 30
0.000000
  0
VERTEX
  8
x
 10
-1513.2
 20
1311.0
 30
0.000000
  0
VERTEX
  8
x
 10
-1453.2
 20
1311.0
 30
0.000000
  0
VERTEX
  8
x
 10
-1453.2
 20
1341.0
 30
0.000000
  0
SEQEND
  8
x
  0
POLYLINE
  8
x
 66
1
 10
0.0
 20
0.0
 30
0.000000
 39
0.000000
 70
1
  0
VERTEX
  8
x
 10
-1603.7
 20
1341.0
 30
0.000000
  0
VERTEX
  8
x
 10
-1663.7
 20
1341.0
 30
0.000000
  0
VERTEX
  8
x
 10
-1663.7
 20
1311.0
 30
0.000000
  0
VERTEX
  8
x
 10
-1603.7
 20
1311.0
 30
0.000000
  0
VERTEX
  8
x
 10
-1603.7
 20
1341.0
 30
0.000000
  0
SEQEND
  8
x
  0
POLYLINE
  8
x
 66
1
 10
0.0
 20
0.0
 30
0.000000
 39
0.000000
 70
1
  0
VERTEX
  8
x
 10
-1754.1
 20
1341.0
 30
0.000000
  0
VERTEX
  8
x
 10
-1814.1
 20
1341.0
 30
0.000000
  0
VERTEX
  8
x
 10
-1814.1
 20
1311.0
 30
0.000000
  0
VERTEX
  8
x
 10
-1754.1
 20
1311.0
 30
0.000000
  0
VERTEX
  8
x
 10
-1754.1
 20
1341.0
 30
0.000000
  0
SEQEND
  8
x
  0
POLYLINE
  8
x
 66
1
 10
0.0
 20
0.0
 30
0.000000
 39
0.000000
 70
1
  0
VERTEX
  8
x
 10
-1904.6
 20
1341.0
 30
0.000000
  0
VERTEX
  8
x
 10
-1964.6
 20
1341.0
 30
0.000000
  0
VERTEX
  8
x
 10
-1964.6
 20
1311.0
 30
0.000000
  0
VERTEX
  8
x
 10
-1904.6
 20
1311.0
 30
0.000000
  0
VERTEX
  8
x
 10
-1904.6
 20
1341.0
 30
0.000000
  0
SEQEND
  8
x
  0
POLYLINE
  8
x
 66
1
 10
0.0
 20
0.0
 30
0.000000
 39
0.000000
 70
1
  0
VERTEX
  8
x
 10
-859.0
 20
147.9
 30
0.000000
  0
VERTEX
  8
x
 10
-859.0
 20
207.9
 30
0.000000
  0
VERTEX
  8
x
 10
-889.0
 20
207.9
 30
0.000000
  0
VERTEX
  8
x
 10
-889.0
 20
147.9
 30
0.000000
  0
VERTEX
  8
x
 10
-859.0
 20
147.9
 30
0.000000
  0
SEQEND
  8
x
  0
POLYLINE
  8
x
 66
1
 10
0.0
 20
0.0
 30
0.000000
 39
0.000000
 70
1
  0
VERTEX
  8
x
 10
-859.0
 20
310.9
 30
0.000000
  0
VERTEX
  8
x
 10
-859.0
 20
370.9
 30
0.000000
  0
VERTEX
  8
x
 10
-889.0
 20
370.9
 30
0.000000
  0
VERTEX
  8
x
 10
-889.0
 20
310.9
 30
0.000000
  0
VERTEX
  8
x
 10
-859.0
 20
310.9
 30
0.000000
  0
SEQEND
  8
x
  0
POLYLINE
  8
x
 66
1
 10
0.0
 20
0.0
 30
0.000000
 39
0.000000
 70
1
  0
VERTEX
  8
x
 10
-859.0
 20
473.8
 30
0.000000
  0
VERTEX
  8
x
 10
-859.0
 20
533.8
 30
0.000000
  0
VERTEX
  8
x
 10
-889.0
 20
533.8
 30
0.000000
  0
VERTEX
  8
x
 10
-889.0
 20
473.8
 30
0.000000
  0
VERTEX
  8
x
 10
-859.0
 20
473.8
 30
0.000000
  0
SEQEND
  8
x
  0
POLYLINE
  8
x
 66
1
 10
0.0
 20
0.0
 30
0.000000
 39
0.000000
 70
1
  0
VERTEX
  8
x
 10
-859.0
 20
636.7
 30
0.000000
  0
VERTEX
  8
x
 10
-859.0
 20
696.7
 30
0.000000
  0
VERTEX
  8
x
 10
-889.0
 20
696.7
 30
0.000000
  0
VERTEX
  8
x
 10
-889.0
 20
636.7
 30
0.000000
  0
VERTEX
  8
x
 10
-859.0
 20
636.7
 30
0.000000
  0
SEQEND
  8
x
  0
POLYLINE
  8
x
 66
1
 10
0.0
 20
0.0
 30
0.000000
 39
0.000000
 70
1
  0
VERTEX
  8
x
 10
-859.0
 20
799.7
 30
0.000000
  0
VERTEX
  8
x
 10
-859.0
 20
859.7
 30
0.000000
  0
VERTEX
  8
x
 10
-889.0
 20
859.7
 30
0.000000
  0
VERTEX
  8
x
 10
-889.0
 20
799.7
 30
0.000000
  0
VERTEX
  8
x
 10
-859.0
 20
799.7
 30
0.000000
  0
SEQEND
  8
x
  0
POLYLINE
  8
x
 66
1
 10
0.0
 20
0.0
 30
0.000000
 39
0.000000
 70
1
  0
VERTEX
  8
x
 10
-859.0
 20
962.6
 30
0.000000
  0
VERTEX
  8
x
 10
-859.0
 20
1022.6
 30
0.000000
  0
VERTEX
  8
x
 10
-889.0
 20
1022.6
 30
0.000000
  0
VERTEX
  8
x
 10
-889.0
 20
962.6
 30
0.000000
  0
VERTEX
  8
x
 10
-859.0
 20
962.6
 30
0.000000
  0
SEQEND
  8
x
  0
POLYLINE
  8
x
 66
1
 10
0.0
 20
0.0
 30
0.000000
 39
0.000000
 70
1
  0
VERTEX
  8
x
 10
-859.0
 20
1125.6
 30
0.000000
  0
VERTEX
  8
x
 10
-859.0
 20
1185.6
 30
0.000000
  0
VERTEX
  8
x
 10
-889.0
 20
1185.6
 30
0.000000
  0
VERTEX
  8
x
 10
-889.0
 20
1125.6
 30
0.000000
  0
VERTEX
  8
x
 10
-859.0
 20
1125.6
 30
0.000000
  0
SEQEND
  8
x
  0
POLYLINE
  8
x
 66
1
 10
0.0
 20
0.0
 30
0.000000
 39
0.000000
 70
1
  0
VERTEX
  8
x
 10
-1001.9
 20
1341.0
 30
0.000000
  0
VERTEX
  8
x
 10
-1061.9
 20
1341.0
 30
0.000000
  0
VERTEX
  8
x
 10
-1061.9
 20
1311.0
 30
0.000000
  0
VERTEX
  8
x
 10
-1001.9
 20
1311.0
 30
0.000000
  0
VERTEX
  8
x
 10
-1001.9
 20
1341.0
 30
0.000000
  0
SEQEND
  8
x
  0
POLYLINE
  8
x
 66
1
 10
0.0
 20
0.0
 30
0.000000
 39
0.000000
 70
1
  0
VERTEX
  8
x
 10
-1152.4
 20
1341.0
 30
0.000000
  0
VERTEX
  8
x
 10
-1212.4
 20
1341.0
 30
0.000000
  0
VERTEX
  8
x
 10
-1212.4
 20
1311.0
 30
0.000000
  0
VERTEX
  8
x
 10
-1152.4
 20
1311.0
 30
0.000000
  0
VERTEX
  8
x
 10
-1152.4
 20
1341.0
 30
0.000000
  0
SEQEND
  8
x
  0
POLYLINE
  8
x
 66
1
 10
0.0
 20
0.0
 30
0.000000
 39
0.000000
 70
1
  0
VERTEX
  8
x
 10
-1302.8
 20
1341.0
 30
0.000000
  0
VERTEX
  8
x
 10
-1362.8
 20
1341.0
 30
0.000000
  0
VERTEX
  8
x
 10
-1362.8
 20
1311.0
 30
0.000000
  0
VERTEX
  8
x
 10
-1302.8
 20
1311.0
 30
0.000000
  0
VERTEX
  8
x
 10
-1302.8
 20
1341.0
 30
0.000000
  0
SEQEND
  8
x
  0
POLYLINE
  8
x
 66
1
 10
0.0
 20
0.0
 30
0.000000
 39
0.000000
 70
1
  0
VERTEX
  8
x
 10
-1453.2
 20
1341.0
 30
0.000000
  0
VERTEX
  8
x
 10
-1513.2
 20
1341.0
 30
0.000000
  0
VERTEX
  8
x
 10
-1513.2
 20
1311.0
 30
0.000000
  0
VERTEX
  8
x
 10
-1453.2
 20
1311.0
 30
0.000000
  0
VERTEX
  8
x
 10
-1453.2
 20
1341.0
 30
0.000000
  0
SEQEND
  8
x
  0
POLYLINE
  8
x
 66
1
 10
0.0
 20
0.0
 30
0.000000
 39
0.000000
 70
1
  0
VERTEX
  8
x
 10
-1603.7
 20
1341.0
 30
0.000000
  0
VERTEX
  8
x
 10
-1663.7
 20
1341.0
 30
0.000000
  0
VERTEX
  8
x
 10
-1663.7
 20
1311.0
 30
0.000000
  0
VERTEX
  8
x
 10
-1603.7
 20
1311.0
 30
0.000000
  0
VERTEX
  8
x
 10
-1603.7
 20
1341.0
 30
0.000000
  0
SEQEND
  8
x
  0
POLYLINE
  8
x
 66
1
 10
0.0
 20
0.0
 30
0.000000
 39
0.000000
 70
1
  0
VERTEX
  8
x
 10
-1754.1
 20
1341.0
 30
0.000000
  0
VERTEX
  8
x
 10
-1814.1
 20
1341.0
 30
0.000000
  0
VERTEX
  8
x
 10
-1814.1
 20
1311.0
 30
0.000000
  0
VERTEX
  8
x
 10
-1754.1
 20
1311.0
 30
0.000000
  0
VERTEX
  8
x
 10
-1754.1
 20
1341.0
 30
0.000000
  0
SEQEND
  8
x
  0
POLYLINE
  8
x
 66
1
 10
0.0
 20
0.0
 30
0.000000
 39
0.000000
 70
1
  0
VERTEX
  8
x
 10
-1904.6
 20
1341.0
 30
0.000000
  0
VERTEX
  8
x
 10
-1964.6
 20
1341.0
 30
0.000000
  0
VERTEX
  8
x
 10
-1964.6
 20
1311.0
 30
0.000000
  0
VERTEX
  8
x
 10
-1904.6
 20
1311.0
 30
0.000000
  0
VERTEX
  8
x
 10
-1904.6
 20
1341.0
 30
0.000000
  0
SEQEND
  8
x
  0
ENDSEC
  0
EOF
