999
*************** ***** CMS INFORMATIQUE SA  *****
999
*************** *** EXPERT MANAGER ESCALIERS ***
999
*************** **** LIMON I4 ****
999
*************** DEBUT_HEADER		
  0
SECTION
  2
HEADER
  9
$ANGBASE
 50
0.0
  9
$ANGDIR
 70
0
  9
$AUNITS
 70
0
  9
$AUPREC
 70
0
  9
$SPLFRAME
 70
0
  9
$SPLINETYPE
 70
6
  9
$SPLINESEGS
 70
8
  0
ENDSEC
999
*************** FIN_HEADER		
999
*************** DEBUT_TABLES		
  0
SECTION
  2
TABLES
  0
TABLE
  2
LTYPE
 70
 1
  0
LTYPE
  2
1
 70
64
  3
Solid Line
 72
65
 73
0
 40
0.0
  0
ENDTAB
  0
TABLE
  2
LAYER
 70
10
  0
LAYER
  2
LMcontour
 70
0
 62
1
  6
1
  0
LAYER
  2
xd
 70
0
 62
2
  6
1
  0
LAYER
  2
xg
 70
0
 62
3
  6
1
  0
LAYER
  2
BAcontour
 70
0
 62
4
  6
1
  0
LAYER
  2
X
 70
0
 62
5
  6
1
  0
LAYER
  2
BAcoupe
 70
0
 62
6
  6
1
  0
LAYER
  2
BAtenon
 70
0
 62
7
  6
1
  0
LAYER
  2
X
 70
0
 62
8
  6
1
  0
LAYER
  2
BAencombrement
 70
0
 62
9
  6
1
  0
LAYER
  2
X
 70
0
 62
10
  6
1
  0
ENDTAB
  0
ENDSEC
999
*************** FIN_TABLES		
999
*************** DEBUT_BLOCKS		
  0
SECTION
  2
BLOCKS
  0
ENDSEC
999
*************** FIN_BLOCKS		
999
*************** DEBUT_ENTITIES	
  0
SECTION
  2
ENTITIES
999
*************** Contour du balustre
  0
POLYLINE
  8
BAcontour
 66
1
 10
0.0
 20
0.0
 30
0.000000
 39
-30.000000
  0
VERTEX
  8
BAcontour
 10
-43679.4467
 20
-20726.3371
 30
0.000000
  0
VERTEX
  8
BAcontour
 10
-43696.0467
 20
-20709.1371
 30
0.000000
  0
VERTEX
  8
BAcontour
 10
-43714.8467
 20
-20689.9371
 30
0.000000
  0
VERTEX
  8
BAcontour
 10
-43733.9467
 20
-20670.7371
 30
0.000000
  0
VERTEX
  8
BAcontour
 10
-43738.3467
 20
-20666.3371
 30
0.000000
  0
VERTEX
  8
BAcontour
 10
-44816.9467
 20
-20666.3371
 30
0.000000
  0
VERTEX
  8
BAcontour
 10
-44760.5467
 20
-20726.3371
 30
0.000000
  0
VERTEX
  8
BAcontour
 10
-43679.4467
 20
-20726.3371
 30
0.000000
  0
SEQEND
  8
BAcontour
999
*************** Encombrement du balustre
  0
POLYLINE
  8
X
 66
1
 10
0.0
 20
0.0
 30
0.000000
 39
-30.000000
  0
VERTEX
  8
X
 10
-43707.8467
 20
-20696.9371
 30
0.000000
  0
VERTEX
  8
X
 10
-43740.9467
 20
-20663.7371
 30
0.000000
  0
SEQEND
  8
X
  0
POLYLINE
  8
X
 66
1
 10
0.0
 20
0.0
 30
0.000000
 39
-30.000000
  0
VERTEX
  8
X
 10
-43745.3467
 20
-20659.2371
 30
0.000000
  0
VERTEX
  8
X
 10
-43672.4467
 20
-20733.4371
 30
0.000000
  0
SEQEND
  8
X
999
*************** Tenon inferieur ( coté limon )
999
*************** ******* BALUSTRE N° 5
  0
POLYLINE
  8
BAtenon
 66
1
 10
0.0
 20
0.0
 30
4732567.600000
 39
-9465164.800000
  0
VERTEX
  8
BAtenon
 10
-43679.4467
 20
-20726.3371
 30
4732567.600000
  0
VERTEX
  8
BAtenon
 10
-43678.8467
 20
-20726.3371
 30
4732567.600000
  0
VERTEX
  8
BAtenon
 10
-43678.8467
 20
-20666.3371
 30
4732567.600000
  0
VERTEX
  8
BAtenon
 10
-43738.3467
 20
-20666.3371
 30
4732567.600000
  0
VERTEX
  8
BAtenon
 10
-43679.4467
 20
-20726.3371
 30
4732567.600000
  0
SEQEND
  8
BAtenon
999
*************** Bout du tenon inferieur
999
*************** Arasement inferieur
  0
POLYLINE
  8
BAcoupe
 66
1
 10
0.0
 20
0.0
 30
4732567.600000
 39
-9465164.800000
  0
VERTEX
  8
BAcoupe
 10
-43678.8467
 20
-20736.3371
 30
4732567.600000
  0
VERTEX
  8
BAcoupe
 10
-43678.8467
 20
-20656.3371
 30
4732567.600000
  0
SEQEND
  8
BAcoupe
999
*************** Arasement inferieur
  0
POLYLINE
  8
X
 66
1
 10
0.0
 20
0.0
 30
4732567.600000
 39
-9465164.800000
  0
VERTEX
  8
X
 10
-43745.2467
 20
-20659.2371
 30
4732567.600000
  0
VERTEX
  8
X
 10
-43679.8467
 20
-20726.3371
 30
4732567.600000
  0
VERTEX
  8
X
 10
-43678.8467
 20
-20726.3371
 30
4732567.600000
  0
VERTEX
  8
X
 10
-43678.8467
 20
-20666.3371
 30
4732567.600000
  0
VERTEX
  8
X
 10
-43739.3467
 20
-20666.3371
 30
4732567.600000
  0
VERTEX
  8
X
 10
-43672.4467
 20
-20733.3371
 30
4732567.600000
  0
SEQEND
  8
X
999
*************** Usinage balustre
  0
POINT
  8
X
 10
-44788.7467
 20
-20696.3371
 30
-15.000000
  0
POINT
  8
X
 10
-43708.8467
 20
-20696.3371
 30
-15.000000
999
*************** Tenon superieur ( coté main courante )
  0
POLYLINE
  8
BAtenon
 66
1
 10
0.0
 20
0.0
 30
4732567.600000
 39
-9465164.800000
  0
VERTEX
  8
BAtenon
 10
-44760.5467
 20
-20726.3371
 30
4732567.600000
  0
VERTEX
  8
BAtenon
 10
-44818.7467
 20
-20726.3371
 30
4732567.600000
  0
VERTEX
  8
BAtenon
 10
-44818.7467
 20
-20666.3371
 30
4732567.600000
  0
VERTEX
  8
BAtenon
 10
-44760.5467
 20
-20666.3371
 30
4732567.600000
  0
VERTEX
  8
BAtenon
 10
-44760.5467
 20
-20726.3371
 30
4732567.600000
  0
SEQEND
  8
BAtenon
999
*************** Bout du tenon superieur
  0
POLYLINE
  8
BAcoupe
 66
1
 10
0.0
 20
0.0
 30
4732567.600000
 39
-9465164.800000
  0
VERTEX
  8
BAcoupe
 10
-44818.7467
 20
-20736.3371
 30
4732567.600000
  0
VERTEX
  8
BAcoupe
 10
-44818.7467
 20
-20656.3371
 30
4732567.600000
  0
SEQEND
  8
BAcoupe
999
*************** Arasement inferieur
  0
POLYLINE
  8
X
 66
1
 10
0.0
 20
0.0
 30
4732567.600000
 39
-9465164.800000
  0
VERTEX
  8
X
 10
-44753.7467
 20
-20733.5371
 30
4732567.600000
  0
VERTEX
  8
X
 10
-44760.5467
 20
-20726.3371
 30
4732567.600000
  0
VERTEX
  8
X
 10
-44818.7467
 20
-20726.3371
 30
4732567.600000
  0
VERTEX
  8
X
 10
-44818.7467
 20
-20666.3371
 30
4732567.600000
  0
VERTEX
  8
X
 10
-44816.9467
 20
-20666.3371
 30
4732567.600000
  0
VERTEX
  8
X
 10
-44823.7467
 20
-20659.1371
 30
4732567.600000
  0
SEQEND
  8
X
999
*************** Encombrement du balustre
  0
POLYLINE
  8
BAencombrement
 66
1
 10
0.0
 20
0.0
 30
0.000000
 39
-30.000000
 70
1
  0
VERTEX
  8
BAencombrement
 10
-44823.7467
 20
-20736.3371
 30
0.000000
  0
VERTEX
  8
BAencombrement
 10
-44823.7467
 20
-20656.3371
 30
0.000000
  0
VERTEX
  8
BAencombrement
 10
-43672.4467
 20
-20656.3371
 30
0.000000
  0
VERTEX
  8
BAencombrement
 10
-43672.4467
 20
-20736.3371
 30
0.000000
  0
VERTEX
  8
BAencombrement
 10
-44823.7467
 20
-20736.3371
 30
0.000000
  0
SEQEND
  8
BAencombrement
  0
ENDSEC
  0
EOF
